Гитарная фразировка, композиции и табулатуры

Tenacious D - Classico - музыкальная тема для гитары из фильма: Медиатор судьбы / Tenacious D in The Pick of Destiny (2006)

1). Как она выглядит в фильме:
Tenacious D - Classico

pix.PlayGround.ru

========================================

2).Видеоуроки игры на youtube (3 видео:Part 1,Part 2,Part 3)
Tenacious D - Classico Part 1

Tenacious D - Classico Part 2

Tenacious D - Classico Part 3

************************************************
Tenacious D - Classico®
pix.PlayGround.ru
Var1.Classico Tab
Здесь^можно прослушать и увидеть наглядно на примере табулатуры, замедляя при необходимости,ставя на паузу и т.д...
Can't play "Classico"? Improve your playing via easy step-by-step video lessons!
This is probably the only place on the internet where you can find the full tab for this
I spent a few hours working out the notes and the end result was having not only the
guitar part, but the tab for both guitars that are played. Please rate this high because
is my first tab and its a good one.

Song: Classico
Artist: Tenacious D
Album: The Pick Of Destiny
Tabbed by: Bryce White

Classico Tab Var1.
Both Guitars Tuning: Standard (EADGBE)

Part I: Bouree In E Minor by Bach

Guitar I
E|-0--2--3--2--0----0--2-----------0----------------------------------------|
B|---------------4--------0--2--4-----3--1--0-------------------------------|
G|---------------------------------------------2--0-----0--2--4--2--0-------|
D|---------------------------------------------------4-----------------4--2-|
A|----------0----2-----------------------------0-----2--------2-------------|
E|-3--2--0----------------3--2-----0--2--0--3--------------------------2--0-|

Guitar II
E|-------3-------------------------0----------------------------------------|
B|---------------4--------0-----------------0-------------------------------|
G|------------------------------------------------------------4-------------|
D|---------------------------------------------------4-----------------4--2-|
A|---------------2-----------------------------------2--------2-------------|
E|-------0----------------3--------0--------3--------------------------2--0-|

Part II: Fur Elise by Beethoven

Guitar I
E|-7-6-7-6-7-----------------------------7-6-7-6-7--------------------------|
B|-----------7-10-8---------7-----7-8--------------7-10-8---------7---8-7---|
G|------------------9-----9-----8-------------------------9-----9---------9-|
D|----------------------9-------------------------------------9-------------|
A|--------------------7-------------------------------------7---------------|
E|----------------------------7--------7----------------------------7-------|

Guitar II
E|------------------7---------------7---------------------7---------------7-|
B|------------------8-------4-------8---------------------8-------4-------8-|
G|------------------9-------4-------9---------------------9-------4-------9-|
D|------------------9-------4-------9---------------------9-------4-------9-|
A|------------------7-------2-------7---------------------7-------2-------7-|
E|--------------------------------------------------------------------------|

Guitar I
E|---------7-7-8-7-------7-------------------------------------------------|
B|----8-10---------10-10---10-8-8-10-8-7-----------------------------------|
G|--9----------------------------------------------------------------------|
D|---------------------------------------9-9-8-9-8-9-8---------------------|
A|-------------------------------------------------------------------------|
E|-----------------------------------------------------7-6-7-6-7-6---------|

Guitar II
E|---------7-------5--------3----------2-----------------------------------|
B|---------8-------7--------5----------4-----------------------------------|
G|---------7-------7--------4----------4-----------------------------------|
D|-------------------------------------------------------------------------|
A|-------------------------------------------------------------------------|
E|-------------------------------------------------------------------------|

Guitar I
E|-------------------------------------------------------------------------|
B|-12-11-12-11-12----------------------------------------------------------|
G|----------------11-14-12-------------------------------------------------|
D|--------------------------14tremolo13------------------------------------|
A|-------------------------------------------------------------------------|
E|-------------------------------------------------------------------------|

Guitar II
E|-------------------------------------------------------------------------|
B|-------------------------------------------------------------------------|
G|-------------------------------------------------------------------------|
D|-------------------------------------------------------------------------|
A|-------------------------------------------------------------------------|
E|-------------------------------------------------------------------------|

Part III: Eine Kleine Nachtmusik by Mozart

Guitar I
E|------------------------------------------------------0------------------|
B|-----------------7--5-2-5-2-5-2---2-------4-2-------2-----2-0-4-2--------|
G|---------------8----------------3-----4-4-----4-4-3-----3---------4-4-3--|
D|-9---9---9---9----------------------4------------------------------------|
A|---9---9---9-------------------------------------------------------------|
E|-------------------------------------------------------------------------|

Guitar II
E|-7---7---7---7---7--0---0---0---0--0-------------------------------------|
B|-7---7---7---7---7--0---0---0---0--0-------------------------------------|
G|-8---8---8---8---8--1---1---1---1--1--4-----------3---------4---------3--|
D|-9---9---9---9---9--2---2---2---2--2--4-----------2---------4---------2--|
A|-9---9---9---9---9--2---2---2---2--2--2---------------------2------------|
E|-7---7---7---7---7--0---0---0---0--0-------------------------------------|

Guitar I
E|---0------------------------------------------2h4-2-0-0-0-0--------------|
B|-2------------------------------4-4-2h4p2h4-4---------------4-4-4-4------|
G|-----3-4-4-3h4p3h4--4-4-3h4p3h4------------------------------------------|
D|-------------------------------------------------------------------------|
A|-------------------------------------------------------------------------|
E|-------------------------------------------------------------------------|

Guitar II
E|-------------------------------------------------------------------------|
B|-------------------------------------------------------------------------|
G|---------4---------------------------------------------------------------|
D|---------4----------------------------------------4---------4------------|
A|---------2---------------------------------------------------------------|
E|-------------------------------------------------------------------------|

Guitar I
E|-------------------------------------------------------------------------|
B|-4-4-4-4-2-2-2-2-0-----0-------------------------------------------------|
G|-------------------1-3--------------------------------6-8-10-11----10----|
D|----------------------------------------------------9-----------11----11-|
A|-------------------------------------------------------------------------|
E|-------------------------------------------------------------------------|

Guitar II
E|-----------------------7-------------------------------------------------|
B|-----------------------7-------------------------------------------------|
G|-----------------------8-------------------------------------11----10----|
D|-----------------------9--Play 14 times----------------------11----11----|
A|-----------------------9-------------------------------------9-----9-----|
E|-----------------------7-------------------------------------------------|

Guitar I
E|-------------------------------------------------------------------------|
B|-------------------------------------------------------------------------|
G|-10----11----10----10----11-11-11-11-10-10-10-10-10-10-10-11-11-11-------|
D|----11----11----11----11-11-11-11-11-11-11-11-11-11-11-11-11-11-11-------|
A|-------------------------------------------------------------------------|
E|-------------------------------------------------------------------------|

Guitar II
E|-------------------------------------------------------------------------|
B|-------------------------------------------------------------------------|
G|-10----11----10----10----11-11-11-11-10-10-10-10-10-10-10-11-11-11-------|
D|-11----11----11----11----11-11-11-11-11-11-11-11-11-11-11-11-11-11-------|
A|-9-----9-----9-----9-----9--9--9--9--9--9--9--9--9--9--9--9--9--9--------|
E|-------------------------------------------------------------------------|

And now you're done! Please rate this well :)






















========================================================

Tenacious D - Classico®
pix.PlayGround.ru
Var2.Tenacious D - Classico, аккорды,табы
Аккорды, присутствующие в подборе: На странице ссылки

Џрослушать или скачать mp3
Em H E Em
Can\'t you see he\'s the man, let me hear you applaud
Em H Em H Em
he is more than a man he\'s a shiny golden god.
H Em H Em
If you think its time to f**king rock, and f**king roll, out of control,
H Em
and then you know you got to rock the block,
H Em
and f**king suck my f**king cock,
G D Em H
\'cause when you rule, you f**king school all of the fools, out of their jewels,
H
\'cause if you think it\'s time,
if you think it\'s time,
Em H
if you think it\'s time to f**king rock.
H F#
He is going to kick your f**king ass,
E F#
and you know his name is Kyle Gass,
H F#
rocking and f**king rolling,
H
and f**king rocking,
F#
and f**king rolling,
H..... F# H F# C# F# C# F#
and f**king [vocal solo]...

Classico Tab Var2.
E||---0-2-3---2-0-----0-2---------------------------------------------|
B||---------------4-------0---2-4-5---3-1-0----------------0----------|
G||-------------------------------------------2-0------0-2---2-0------|
D||------------------------------------------------4-------------4-2--|
A||-------------------------------------------------------------------|
E||-------------------------------------------------------------------|x2

E||------0---|--0---0-------|--------------|--------------|----------0---|
B||--------4-|----4---0-3-1-|--------------|--0---------0-|--1---------4-|
G||----------|--------------|--2---2-----2-|------1---1---|------2-------|
D||----------|--------------|----2-----2---|----2---2-----|----2---2-----|
A||----------|--------------|--0-----3-----|--------------|--0-----------|
E||----------|--------------|--------------|--0-----------|--------------|

--0---0-------|--------------|--------------|---------0---|--0---0-------|
----4---0-3-1-|--------------|--0-------1-0-|-----------4-|----4---0-3-1-|
--------------|--2---2-----2-|------1-------|--2---2------|--------------|
--------------|----2-----2---|----2---2-----|----2--------|--------------|
--------------|--0-----3-----|--------------|--0----------|--------------|
--------------|--------------|--0-----------|-------------|--------------|

--------------|--------------|----------0---|--0---0-------|--------------|
--------------|--0---------0-|--1---------4-|----4---0-3-1-|--------------|
--2---2-----2-|------1---1---|------2-------|--------------|--2---2-----2-|
----2-----2---|----2---2-----|----2---2-----|--------------|----2-----2---|
--0-----3-----|--------------|--0-----------|--------------|--0-----3-----|
--------------|--0-----------|--------------|--------------|--------------|

--------------|--------------|--0-------1-0-|----------0---|--------------|
--0-------1-0-|--------0-1-3-|------1-------|--3---0-----3-|--1-------3-1-|
------1-------|--2---2-------|--------0-----|----0---------|------2-------|
----2---0-----|----2---------|----2---------|--------3-----|----2---2-----|
--------------|--0-----------|--3-----------|--------------|--0-----------|
--0-----------|--------------|--------------|--3-----------|--------------|

------0---0---|--0---12---0---|--0---0---0---|--0---0-------|--------------|
--0-----------|---------4---4-|----4---4---4-|----4---0-3-1-|--------------|
--------------|----9----------|--------------|--------------|--2---2-----2-|
----2---2---2-|---------------|--------------|--------------|----2-----2---|
--------------|---------------|--------------|--------------|--0-----3-----|
--0-----------|---------------|--------------|--------------|--------------|

--------------|----------0---|--0---0-------|--------------|--------------|
--0---------0-|--1---------4-|----4---0-3-1-|--------------|--0-------1-0-|
------1---1---|------2-------|--------------|--2---2-----2-|------1-------|
----2---2-----|----2---2-----|--------------|----2-----2---|----2---0-----|
--------------|--0-----------|--------------|--0-----3-----|--------------|
--0-----------|--------------|--------------|--------------|--0-----------|

--------------|--0-------1-0-|----------0---|--------------|------0---0---|
--------0-1-3-|------1-------|--3---0-----3-|--1-------3-1-|--0-----------|
--2---2-------|--------0-----|----0---------|------2-------|--------------|
----2---------|----2---------|--------3-----|----2---2-----|----2---2---2-|
--0-----------|--3-----------|--------------|--0-----------|--------------|
--------------|--------------|--3-----------|--------------|--0-----------|

--0---12---0---|--0---0---0---|--0---0-------|--------------|--------------|
---------4---4-|----4---4---4-|----4---0-3-1-|--------------|--0---------0-|
---------------|--------------|--------------|--2---2-----2-|------1---1---|
---------------|--------------|--------------|----2-----2---|----2---2-----|
---------------|--------------|--------------|--0-----3-----|--------------|
----0----------|--------------|--------------|--------------|--0-----------|

----------0---|--0---0-------|--------------|--------------|--------------|
--1---------4-|----4---0-3-1-|--------------|--0-------1-0-|--------1-1-1-|
------2-------|--------------|--2---2-----2-|------1-------|--2---2-----3-|
----2---2-----|--------------|----2-----2---|----2---0-----|----2---2-3-2-|
--0-----------|--------------|--0-----3-----|--------------|--0-----1-0---|
--------------|--------------|--------------|--0-----------|------------3-|

----------1---0-|----------6---5-|--5/3-1-0-----|------------------|
--1-------1-----|--5---3---3-----|----------3-1-|------------------|
--2-2---2---2---|----3---3---3---|--------------|--3---2---2-0-2-3-|
------3---------|--3-------------|--3/2-0-2-3-2-|--3---------------|
----------------|----------------|--------------|----3-3h0---------|
--1-------------|----------------|--------------|------------------|

--------------|--0-----0-1---|----------------|----3---3---3---3---3---3-|
--1-------3-4-|------1-------|--1-------3---0-|--1-----------0---1---3---|
--2-2---2-----|----2---2---2-|----------------|------0---2---------------|
--3---3-------|--2-------0-3-|----2---3---3---|--------------3---2---0---|
--------------|--------------|----------------|--3-----------------------|
--------------|--------------|--3---3---3-----|--------------------------|

--0-3-8h7-5h3-1-0---3-1---|----3---3---3---3---3---3-|
------------------3-----3-|--1-----------0---1---3---|
------------------0-------|------0---2---------------|
----------3---------------|--------------3---2---0---|
--3/--7-------------------|--3-----------------------|
--------------------------|--------------------------|

--0-3-8h7-5h3-1-0---3-1---|--0-1-0---0---0---0---0---|--0-----0---|--0-----0---|
------------------3-----3-|--------4---0---4---0---4-|------0---4-|------0---4-|
------------------0-------|--1-----------------------|------------|------------|
----------3---------------|--------------------------|------------|------------|
--3/--7-------------------|--------------------------|------------|------------|
--------------------------|--------------------------|------------|------------|

--0---0---0---|--0---0-------|--------------|--------------|----------0---|
----4---4---4-|----4---0-3-1-|--------------|--0---------0-|--1---------4-|
--------------|--------------|--2---2-----2-|------1---1---|------2-------|
--------------|--------------|----2-----2---|----2---2-----|----2---2-----|
--------------|--------------|--0-----3-----|--------------|--0-----------|
--------------|--------------|--------------|--0-----------|--------------|

--0---0-------|--------------|--------------|--------------|--0-------1-0-|
----4---0-3-1-|--------------|--0-------1-0-|--------0-1-3-|------1-------|
--------------|--2---2-----2-|------1-------|--2---2-------|--------0-----|
--------------|----2-----2---|----2---0-----|----2---------|----2---------|
--------------|--0-----3-----|--------------|--0-----------|--3-----------|
--------------|--------------|--0-----------|--------------|--------------|

----------0---|--------------|------0---0---|--0---12---0---|--0---0---0---|
--3---0-----3-|--1-------3-1-|--0-----------|---------4---4-|----4---4---4-|
----0---------|------2-------|--------------|---------------|--------------|
--------3-----|----2---2-----|----2---2---2-|---------------|--------------|
--------------|--0-----------|--------------|---------------|--------------|
--3-----------|--------------|--0-----------|----0----------|--------------|

--0---0-------|--------------|--------------|----------0---|--0---0-------|
----4---0-3-1-|--------------|--0---------0-|--1---------4-|----4---0-3-1-|
--------------|--2---2-----2-|------1---1---|------2-------|--------------|
--------------|----2-----2---|----2---2-----|----2---2-----|--------------|
--------------|--0-----3-----|--------------|--0-----------|--------------|
--------------|--------------|--0-----------|--------------|--------------|

--------------|--------------|--------------|--------------|----------0-1-|
--------------|--0-------1-0-|--------------|--2-----------|--3-------2-3-|
--2---2-----2-|------1-------|--2-----------|--3-----------|--2-----------|
----2-----2---|----2---0-----|--------------|--5-----------|--3-----------|
--0-----3-----|--------------|--0-0-0-0-0-0-|--0-0-0-0-0-0-|--0-0-0-0-0-0-|
--------------|--0-----------|--------------|--------------|--------------|

--1-------1---|--0-----------|-----------|----------|--------------|
--3-------3---|--1-----------|--3----1-0-|----------|------1---0---|
--1-------1---|--2-----------|-----------|--2----2--|--2-------1---|
--------------|--------------|--3----2-0-|--4-------|------2-------|
--0-0-0-0-0-0-|--0-0-0-0-0-0-|--0--------|--3----3--|--3-----------|
--------------|--------------|-----------|--5-------|--0-0-0-0-0-0-|

--------------|--------------|----------0-1-|--1-------1---|--1-----------|
--------------|--2-----------|--3-------2-3-|--3-------3---|--3-----------|
--2-----------|--3-----------|--2-----------|--------------|--------------|
--------------|--5-----------|--3-----------|--------------|--------------|
--3h0-0-0-0-0-|--0-0-0-0-0-0-|--0-0-0-0-0-0-|--0-0-0-0-0-0-|--1-1-1-1-1-1-|
--------------|--------------|--------------|--------------|--------------|

--------------|--------------|--------------|---------|---------|
--4-------3-1-|--------------|--------------|---------|--0------|
--0-----------|--3-------2---|--1-------1---|--2------|--1------|
----------3---|--0-------3---|--3-------3---|--2------|--2------|
--1-1-1-1-1-1-|--1-1-1-1-1-1-|--2-2-2-2-2-2-|--3------|---------|
--------------|--------------|--------------|---------|--0------|

------------0-------|------0----8-12-10h8----|------0----8-12-10h8----|
----------1---3h1-0-|----1---10-----------12-|----1---10-----------12-|
--------2-----------|--2---------------------|--2---------------------|
------2-------------|------------------------|------------------------|
--0h3---------0-----|--0-------------0-------|--0-------------0-------|
--------------------|------------------------|------------------------|

------------------------|--------------------|------0-------|--------------|
--11-10-9-8-----------3-|--2-1-0-------------|----4---0-3-1-|--------------|
------------11-10-9-8---|--------3-2-1-0-----|--------------|--2---2-----2-|
------------------------|----------------4-3-|--2-----------|----2-----2---|
--0---------------------|--------------------|--------------|--0-----3-----|
------------------------|--------------------|--------------|--------------|

--------------|----------0---|--0---0-------|--------------|--------------|
--0---------0-|--1---------4-|----4---0-3-1-|--------------|--0-------1-0-|
------1---1---|------2-------|--------------|--2---2-----2-|------1-------|
----2---2-----|----2---2-----|--------------|----2-----2---|----2---0-----|
--------------|--0-----------|--------------|--0-----3-----|--------------|
--0-----------|--------------|--------------|--------------|--0-----------|

--------------|--0-------1-0-|----------0---|--------------|------0---0---|
--------0-1-3-|------1-------|--3---0-----3-|--1-------3-1-|--0-----------|
--2---2-------|--------0-----|----0---------|------2-------|--------------|
----2---------|----2---------|--------3-----|----2---2-----|----2---2---2-|
--0-----------|--3-----------|--------------|--0-----------|--------------|
--------------|--------------|--3-----------|--------------|--0-----------|

--0---12---0---|--0---0---0---|--0---0-------|--------------|--------------|
---------4---4-|----4---4---4-|----4---0-3-1-|--------------|--0---------0-|
----9----------|--------------|--------------|--2---2-----2-|------1---1---|
---------------|--------------|--------------|----2-----2---|----2---2-----|
---------------|--------------|--------------|--0-----3-----|--------------|
---------------|--------------|--------------|--------------|--0-----------|

----------0---|--0---0-------|--------------|--------------|---------||
--1---------4-|----4---0-3-1-|--------------|--0-------1-0-|---------||
------2-------|--------------|--2---2-----2-|------1-------|--2------||
----2---2-----|--------------|----2-----2---|----2---0-----|---------||
--0-----------|--------------|--0-----3-----|--------------|--0------||
--------------|--------------|--------------|--0-----------|---------||















============================================
P.S. Дополнительный поиск по теме "Tenacious D-Classico":
"Tenacious D-Classico"


Tenacious D - Classico (High Definition) Pick Of Destiny - Все видеоролики
Ок. Вот пример интересной темы в музыкальном. Сколько постов? Тема тупо утонула во флуде и срачах.
Емае. Кто это все смог осилить? Хорошо быть ударником, целые песни зачастую учатся от силы неделю.
El don demonнaco.... Gitarre...
*********************************
Я Tenacious D - Classico даже не пытался осилить. Не то что бы это сложно,просто есть более интересные лично для меня темы..
Есть в фильме «Однажды в Мексике» (Once Upon a Time in Mexico) - 2003 пара гитарных фраз,виртуозных по самое самое... Они не вошли в официальный саундтрек,о них практически нет абсолютно никаких упоминаний.
Но они круты,они чертовски виртуозно лаконичны и стоят внимания...

1). Звучит в заставке DIMENSION films,в начале фильма:


2). Антонио Бандерас "играет" на крыше здания

-----------------------------------------------------
Снять на слух табулатуру второй фразы,условно назовём её "Virtuoso guitar phrase from the movie(№2)" я попросил человека с идеальным музыкальным слухом,своего знакомого по имени Виктор,который более 20-лет занимается настройкой пианино,играет не на одном музыкальном инструменте.
В итоге,после плодотворного вечернего разбора этой guitar phrase по отдельным нотам и звукам,он выдал следующий вариант её табулатуры:
pix.PlayGround.ru
Virtuoso guitar phrase from the movie(№2).jpg
http://i.playground.ru/i/46/30/37/00/pix/image.jpg
----------------------------------------------
Мои попытки сыграть это, выглядели мягко говоря - никак.Наличие табулатуры / нот позволяет понять некий механизм действия,но не суть исполнения на практике,как это делает безымянный виртуоз за кадром в фильме. Там очень точное и быстрое попадание в ноты,при котором мастер успевает нарисовать фразу с массой оттенков и тонкостей, при сохранении бешенного темпа - как индивидуальный росчерк пера,одним молниеностным движением,оставляя в итоге слушателя обтекать...) В моём же видосе,просто (пусть и немного,но всё же) - прибавлена скорость в видеоредакторе. По настоящему это сыграно медленнее,не намного,но всё же...
***
Чуть более веселее было с акустической вариацией 5th Capriccio paganini из фильма Перекресток Crossroads(1986г.)

Crossroads Guitar Duel
На дуэли звучит вариация 5го каприса,каприччио (Capriccio) Паганини,в аранжировке известного гитариста Стива Вая,который снимался в фильме и играл тему каприса за себя и за Юджина.Обе партии,ту что играет парень,и ту,где по сценарию фильма персонаж Стива Джек Батлер в ответной попытке повторить пассажи Юджина - терпит фиаско.Просто в кадре парень имитирует что играет он сам).
----------------------
О киноляпах с tramvision.ru:Небольшое отступление,в тему.
Стив Вай, подрядившийся в этом фильме на роль Джека Батлера, исполнил все кульминационные моменты дуэли - и за Батлера, и за Юджина. Блюзовые темы за пацана играл гитарист Рай Кудер.
Актер Ральф Маччио старался лишь в точности воспроизвести все движения руки по грифу. Слайды и бенды точны настолько, что многие считают «игру» актера виртуознейшей фальсификацией.

Гитара Юджина - старенький CBS/Fender Telecaster. Кстати, с такой «лопатой» можно спокойно ходить под дождем и потом играть с места в карьер без потери качества звука, как это делает герой фильма.
Гитара «дьявола» Батлера - Сharvel/Jackson (на самом деле Стив Вай играл на зеленом, а рисовался с красным). В свое время калифорнийский Сharvel прославлял гитарист Эдди ван Хален. Фирменный *banez JEM Стива Вая появится годом позже. (глупая цензура PG* - не даёт написать название всемирно известной японской фирмы Ибанез,в данном случае в её натуральном английском варианте,с буквой I перед banez)
История компании *banez:)
http://rocktimeshop.ru/publ/istorija_kompanii_ibanez/1-1-0-1

КИНОЛЯПЫ:
Ляп, о котором знают лишь гитаристы.
Со стороны гитарная дуэль смотрится эффектно, но вот незадача: строй у гитар в разных композициях разный. Юджин (Ральф Маччио), играя блюз, выкаблучивался на открытом строе D (D A D F# A D), то есть, если шваркнуть по всем открытым струнам, зазвучит ре-мажорный аккорд (удобно для игры слайдом - трубочкой на пальце). Позже, когда Юджин начал наяривать 5-й каприс Паганини, у гитары вдруг резко установился классический строй, т.е. обычный, как у большинства гитар (E A D G B E). А ведь никто все шесть струн не подкручивал. Да и сам Джек Батлер (Стив Вай), хоть и играл на классическом строе, не раз умудрился ослабить шестую струну на тон (drop D). Всего было использовано три разных строя.
****************************************
Вот отдельно a la реплика 5каприса в электро варианте *
***************
А это его менее навороченная акустическая вариация *

Eugene Trick Bag - Crossroads

Crossroads-Eugene's trick bag - classical guitar part.pdf (Вариант табулатуры этой акустической темы от пользователя YouTube - desktopmetronome)
http://www.desktopmetronome.com/crossroads.pdf
+ Мои попытки её исполнения,с использованием несколько иной схемы, - комбинации из вытянутого на слух и снятого Виктором,который сделал табулатуру первой,вступительной части,или половину работы;). Снятие второй половины этой темы оказалось мне более по силам.
Табулатура первой части от Виктора: Crossroads - (Var. of the 5th capriccio) classical guitar part 1.JPG
http://i.playground.ru/i/03/40/37/00/pix/image.jpg
pix.PlayGround.ru




*******
P.S.
Эту акустическую вариацию фрагмента Турецкого марша с блюзово-вальяжной концовкой тоже можно упомянуть.


-------------------------------------------------
Табулатура(Тablature) - форма преимущественно инструментальной нотации, оперирующая рабочими элементами музыкального инструмента (клавишами, струнами, ладами). Для сокращения записи в табулатуре применяются буквы, цифры и специальные символы.

Вот так начинается песня Nothing else Matters группы Metallica:
Em
E||-----------0--------|-----------0--------||
H||--------0-----0-----|--------0-----0-----||
G||-----0-----------0--|-----0-----------0--||
D||--------------------|--------------------||
A||--------------------|--------------------||
E||--0-----------------|--0-----------------||

Все, что нужно - дергать открытые струны.
Подробнее: Табулатуры и обозначения в них

Табулатура - форма (схема) инструментальной нотации, использующая вместо нот (или наряду с нотами) буквы или цифры
Y734X
Скорее тривиальная classic в НЕтривиальном формате)
===========================================
Статьи о гитаре
Сборник статей, посвящённых её величеству гитаре
http://www.guitarvideos.ru/index.php?name=Pages&op=page&pid=61
E (или e) - нота ми, первая, нижняя струна
B (или H) - нота си, вторая струна
G - нота соль, третья струна
D - нота ре, четвёртая струна
A - нота ля, пятая струна
E - нота ми, шестая, верхняя струна
---------------------------------------
Шестая и первая открытые струны обе ноты ми, только это ноты разных октав.
----------------------
Ещё в табулатурах встречается знак "х". Он означает, что струна, на которую он ставится, в данном случае не должна играться или должна при игре глушиться.
------------------------------------------------


********************************************************
Option tab acoustic themes from the movie
Crossroads (1986): Variation of Paganini - Capriccio № 5
========================================================
Crossroads - (Var. of the 5th capriccio)
classical guitar part 1

E|----------------------8-12-8------------------------
B|------------------10----------10---------------------
G|----------------9-----------------9-------------------
D|---------7-10-----------------------10-7-------------
A|-------7------------------------------------7------------
E|--5-8------------------------------------------8----|------

E|---------------------7-------------------------------
B|------------------9----9-----------------------------
G|-------------7-9---------9-7------------------------
D|--------6-9-------------------9-6--------------------
A|----5-7----------------------------7-5----------------
E|-7-----------------------------------------------|------

E|-----------------------5-------------------------------
B|-----------------5-8-----8-5--------------------------
G|--------------6---------------6-------------------------
D|---------5-7---------------------7-5--------------------
A|----4-7--------------------------------7-4----------------
E|-5--------------------------------------------------|------

E|-----------------------10-13-10-----------------------------
B|-------------------10-------------10-------------------------
G|------------7-10---------------------10----------------------
D|---------7--------------------------------12-7---------------
A|----5-8-----------------------------------------8-------------
E|-5-------------------------------------------------10---|------

E|-----------------------7-----------------------------------------
B|-------------------9-----9---------------------------------------
G|-------------7-10----------10-7--------------------------------
D|--------6-9-----------------------9-6---------------------------
A|---5-8---------------------------------8-5-----------------------
E|-7--------------------------------------------|-------------------

E|----------------------------------------8-------12------16-------
B|-------------------------------10----------10------13------------
G|----------------------9-------------9-----------------------------
D|---------7----10-7------10---------------------------------------
A|----7------7-------------------------------------------------------
E|-5----8------------------------------------------------------|--0--

Crossroads - (Var. of the 5th capriccio)
classical guitar part 2

E|-------------------------------------------------------------
B|-------------------------------------------------------------
G|-----------------------------2-------------------------------
D|-------2-----------2------------5-3-2----------------------
A|----3-----3--2-5------5-3---------------5-3-2-------------
E|-5--------------------------------------------------|--------

E|-------------------------------------------------------------
B|------------------------------------------------------------
G|------------------------------2----------------------------
D|-------2-----------2-------------5-3-2--------------------
A|----3-----3--2-5------5-3---------------5-3-2-------------
E|-5---------------------------------------------------|-------


E|----------------------------------------------------------------
B|----------------------------------------------------------------
G|---------------2-----------------3-2--------------------------
D|--------2---------5-3-2-----3--------5-3-2-------------------
A|----4------4--------------5--------------------5--------------
E|-5-----------------------------------------------------|-------

E|------------------------------------------------------------
B|------------------------------------------------------------
G|------------------------------2------------------------------
D|------------5-3-2----------------5-3-2---------------------
A|----2-5-2----------5--2-3---------------5-3----------------
E|-3--------------------------------------------------|--------

E|-----------------------------------------------------------------0---------
B|---------------------------------------------------------------0----------
G|-------------------------------------------------------------1-------------
D|-------------3-2--------------3------------7-------------2---------------
A|-------3----------5-3--2---------5-3---------6-------2------------------
E|-1-5-----5----------------4------------5---------|--0--------------------

E|-10-------------------------------------------------------------5-
B|----12-9------12-9------------------------------------------5--
G|----------10---------10------------------------------------6---
D|--------------------------12--9----------------------6----7----
A|----------------------------------11-8------------------0-------
E|-----------------------------------------10-7-4-0-|-------------

**************************************************
При переносе из текстового документа всё сбилось,пришлось все табы в посте править. Сейчас всё выглядит норм.
Это альтернативная табулатура акустической вариации Каприччио,
симбиоз различных трактовок и способов игры этой композиции,не претендующий на идеал и допускающий отступленияв сторону частичного изменения схемы.
В процессе игры каждый может понять что лучше и удобнее изменить под себя и адаптировать под свой стиль игры.
Электрогитарная Variation of Paganini - Capriccio № 5 by Steve Vai

Ry Cooder - Eugenes Trick Bag Guitar Tab
http://www.songsterr.com/a/wsa/ry-cooder-eugenes-trick-bag-guitar-tab-s52574t0

К создателям табулатуры сразу возник вопрос,когда я стал в неё вникать.Первый пассаж,который идёт после вступления на третьей струне,выглядит лажей в положении предпоследней ноты,которая по их версии находится на 5-ом ладу при зажиме 5-ой струны.



E|-----------------------------8--12--8---------------------------
B|-----------------------10----------------10----------------------
G|----------------5--9---------------------------9--5---------------
D|------------7------------------------------------------7------------
A|--------7--------------------------------------------------5(?)--------
E|-5--8------------------------------------------------------------8--

Когда вообще то,в данном случае пятая струна должна зажиматься на 7-ом ладу
Должно быть так:

E|-----------------------------8--12--8---------------------------
B|-----------------------10----------------10----------------------
G|----------------5--9---------------------------9--5---------------
D|------------7------------------------------------------7------------
A|--------7--------------------------------------------------7(!)--------
E|-5--8------------------------------------------------------------8--

В качестве примера правильного положения предпоследней ноты,предлагаю взглянуть на табулатуру альтернативную,в которой используется несколько иная схема,но при этом тональность и суть произведения идентичны. Этим самым пассажем,(играемым другим способом) как раз табулатура и начинается:
Eugene's trick bag - classical guitar part
http://www.desktopmetronome.com/crossroads.pdf
Хотя разница есть в том,что последняя табулатура (pdf) показывает как играть акустический вариант из фильма,а на songsterr.com представлены табы электроварианта Стива Вая,который более продолжительный и отличается от акустического наличием иного мелодического рисунка и дополнительными наворотами.
По сути это два разных произведения одного и того же.

Ry Cooder > Eugene's Trick Bag
http://rockby.net/gtp.php?tab=Cooder-Ry/Eugene-s-Trick-Bag#multitrack
Learn how to play «Eugenes Trick Bag». Watch video lesson, lesson for beginners.
(Научитесь играть «Eugenes Trick Bag». Смотреть видео урок, урок для начинающих).
http://www.azchords.com/s/stevevai-tabs-3808/eugenestrickbag-tabs-40084.html
====================================================
«Eugenes Trick Bag»
-2-4-2-5--2--4--2--5--2--4--2--5--2--4--2--5--2--4--2----
This first part is played very fast, it's all 32'nd notes.



-------------------------8--12-8---------------------------------
--------------------10-------------10-----------------------------
--------------5--9----------------------9--5-----------------------
-----------7------------------------------------7--------------------
--------7------------------------------------------5-----------------
-5--8--------------------------------------------------8--------------
This is a basic A minor Arpeggio.


-----------------------------7------------------------------------------
--------------------------9-----9---------------------------------------
-------------------7--9------------9--7---------------------------------
------------6--9--------------------------9--6---------------------------
-----5--7----------------------------------------7--5---------------------
--7-----------------------------------------------------------------------
E7 Arpeggio.



------------------------------5-------------------------------------------
-----------------------5--8-----8--5-------------------------------------
------------------6----------------------6---------------------------------
-----------5--7-----------------------------7--5--------------------------
--------7------------------------------------------7----------------------
-5--9-------------------------------------------------9-------------------
A7 Arpeggio



-------------------------------10---13---10-----------------------------
-------------------------10--------------------10-------------------------
----------------7--10------------------------------10--7------------------
------------7------------------------------------------------7---------------
-----5--8---------------------------------------------------------------------
--5--------------------------------------------------------------10---8------
D Minor Arpeggio


-------------------------------9---12---9---------------------------------
--------------------------10----------------10--7-------------------------
------------------9--12-----------------------------9---6----------------
---------8--11----------------------------------------------8------------
-7--10---------------------------------------------------------7--------
G# Diminished7 Arpeggio



-------------------------------------------5--------8---------12----8---16
---------------------------------5-------------5--------10----------------
-----------------------5--------------5-------------------------------------
---------------7------------7----------------------------------------------
------7------------7------------------------------------------------------
--5-------8------------------------------------------------------------------
This is an A Minor Arpeggio, only played differntly.



------------------------------------------------17--15--13------------------------
------13--17--13-------15--17--15--13-----------------17--15--13---------
-14-----------------16-------------------------------------------------------16----
Repeat this.


-----------------------17--15--13----------------19--17--15-----------------
------14---17--14-----------------17--14--15----------------18--17--15-----
-14---------------------------------------------------------------------------------




-----------------------------------------------17--15---------------------------
---------15-------18--17--15------------------------18--17--15---------------
-----16------16------------------16--17-----------------------------17--16-------
17-----------------------------------------------------------------------------------





---------------------18--17--15--------------18---------------------16------
------14--17--14----------------17-----16------19--17------------------
-15-----------------------------------18---------------------19--------------


E

----16----------14----------12----------10-----------9--------7---------5---------4---
17-----17-15-----15--14-----14--12-----12--10----10--9---9---7----7---5-----5


-7--4-----0--7--4-----0--7--4-------0---7--4------0--------------
--------5------------5--------------5---------------5------------------
Repeat Once.



-7--4-----0--14--11------0--17--14------0--12--9------0--------------
--------5---------------12---------------15-------------10-----------------
Play this four times.


-19--16------0--7--4-----0--17--14------0--5--2-----0----------------
-----------17------------5----------------15-----------3-------------------
Repeat Once


-22--19-------0---10--7------0---20---17-------0--8--5------0--------
------------20---------------8------------------18--------------6-------------
Repeat Once


22--19--16------19--16-----------------------------------------------
----------------18----------18----------18-------------------------------
---------------------------------19--16------19------16---------------------
----------------------------------------------------18----------------


19---16-------------16---------------------------------------------------------
-----------18---15-------18---15--------18---15------------15--------------
----------------------------------------17-------------17---14------17-14----



-------------------------------------------------------12------------24-----
---------------------------------------------5------------------------------
-------2-------------------------------------------9-------------------------
-------2--------2-----------------------2-----------------14------------
-------0--------2-----------------7----------------------------------------
--17-----------0--0------0-------------------------------------0--------


---------------------------------------9--10--12--------------
----------------------6--7--9--10-------------------------------
-----------5--7--8--------------------------------------------
5--7--8-----------------------------------------------------


------10--12--13--16--17--19--20--22---24---24---24------29-----------
-13-----------------------------------------------------------------------------------


Eugenes Trick Bag Tab - Steve Vai
http://www.yourchords.com/80253/Steve-Vai/Eugenes-Trick-Bag-Tab/
Meshuggah - Shed
ДЫЖ-дж-дж-дж. ДЫЖ-дж-дж. ДЫЖ-дж-дж. ДЫЖ-дж-дж-дж. ДЫЖ-дж-дж. ДЫЖ-дж-дж.
атмаROZ.
Твой труд в этой теме мало кто оценит.
======
Точнее на этом форуме.
Интересно.
Начинающим все равно лучше взять пару уроков по посадке руки и правильной постановке. А то переучиваться так тяжело, что неохота совсем.
А есть упоминания и ресурсы о ногтевой технике? (Правильно подпиливать до сих пор так и не научился - настоящее искусство)
По классу классической гитары, с интересными звукоизвлечениями, характерными для такой техники. Давно хотел узнать (школ по гитаре у нас в городе нет, а ехать за 400 км к хорошему преподавателю не хватит денег да и возможности...).
А теперь сравним эту бездарность с хорошей музыкой.

Я кончил и сперма наслаждения стекает по моим ушам. (Кто не понял, это моя собственная сперма, типа я кончил ушами ахах)))
Недавно стащил с анонимной доски со смешными картинками. Бегло просмотрел, но ещё не читал. Я как раз такое когда-то искал. Какие-то правила построения мелодии, чтоб не изобретать велосипед. Может кому-то пригодится.
Еще один крутой совет: никогда не обрезайте струны на гитаре. Бокорезы - инструмент дорогой и элитный, да и если люди не увидят копну проволоки, свисающей с головки грифа, аки копна небритых волос на лобке малолетней мокрощелки, то они не поймут, какой вы дегенерат.
Когда я считал себя достойным для игры на гитаре, откусывал их большими ножницами.
А ты шо, теперь продал свой эпифон?
Авторизуйтесь, чтобы принять участие в обсуждении.